[NEW] Chords Kunci Gitar Ran Pandangan Pertama [tab] Lirik Terjemahan Arti Lagu

e|5/6\5-1-------1---|------------|------------1---------| 
B|--------3-1-3---3~|-1~--1------|-1---1----3~--3-1-----|
G|------------------|---3---33-0~|--3----33---------5-3~|
D|------------------|------------|----------------------|
A|------------------|------------|----------------------|
E|------------------|------------|----------------------|

`Oh my, oh my, oh my...`

e|5/6\5-1-------5~--|-10----10------5~|-10----10------12~~|
B|--------3-1-3-----|----13----1313---|----13----1313-----|
G|------------------|-----------------|-------------------|
D|------------------|-----------------|-------------------|
A|------------------|-----------------|-------------------|
E|------------------|-----------------|-------------------|